I Feel Like I'm Drowning Accordi - Two Feet

Accordi di I Feel Like I'm Drowning (Two Feet), impara gratis a suonare lo spartito



Suonata 3 Volte


 A#m  G#   F#
[Primeira Parte]
         A#m                G#
You keep dreaming and dark scheming
          D#/G F#
Yeah, you do
         A#m          G#               F#
You're a poison and I know that is the truth
          A#m              G#
All my friends think you're vicious
         D#/G          F#
And they say you're suspicious
         A#m                G#
You keep dreaming and dark scheming
        D#/G
Yeah, you do
[Pré-Refrão]
e|---------------------|
B|---------------------|
G|---8b9--8--6---------|
D|-----------8--6------|
A|---------------8-----|
E|-----------------6---|
e|-----------------------|
B|-----------------------|
G|-------------X---------|
D|----------X------X-----|
A|-------X----------X----|
E|---X---------------X---|
[Refrão]
 A#m                 G#
I feel like I'm drowning
       F# Fm
Aah, drowning
      A#m                 G#
You're holding me down and
        F# Fm
Holding me down
        A#m           G#
You're killing me slow
        F# Fm
So slow, oh-no
  A#m                 G#
I feel like I'm drowning
      F# Fm
Aah, drowning
[Segunda Parte]
          A#m                    G#
You're so plastic and that's tragic          
          D#/G F#
Just for you
          A#m         G#             F#
I don't know what the hell you gonna doh
       A#m               G#
When your looks start depleting
         D#/G             F#
And your friends all start leaving
          A#m                    G#
You're so plastic and that's tragic          
          D#/G F#
Just for you
[Pré-Refrão]
e|---------------------|
B|---------------------|
G|---8b9--8--6---------|
D|-----------8--6------|
A|---------------8-----|
E|-----------------6---|
[Refrão]
 A#m                 G#
I feel like I'm drowning
       F# Fm
Aah, drowning
      A#m                 G#
You're holding me down and
        F# Fm
Holding me down
        A#m           G#
You're killing me slow
        F# Fm
So slow, oh-no
  A#m                 G#
I feel like I'm drowning
      F# Fm
Aah, drowning
[Terceira Parte]
A#m         G#
My life's    okay
D#/G           F#
Yeah, just when you're not around me
A#m         G#
My life's    okay
D#/G           F#
Yeah, just when you're not around me
A#m         G#  
My life's    okay
e|------------------------------------------------|
B|------------------------------------------------|
G|-----------6----8/10----8-------6----8----------|
D|---6/8--------------------------------------8---|
A|------------------------------------------------|
E|------------------------------------------------| 
   Yeah,  when you're not    around       me
A#m         G#  
My life's    okay
[Pré-Refrão]
e|---------------------|
B|---------------------|
G|---8b9--8--6---------|
D|-----------8--6------|
A|---------------8-----|
E|-----------------6---|
[Refrão]
 A#m                 G#
I feel like I'm drowning
       F# Fm
Aah, drowning
      A#m                 G#
You're holding me down and
        F# Fm
Holding me down
        A#m           G#
You're killing me slow
        F# Fm
So slow, oh-no
  A#m                 G#
I feel like I'm drowning
      F# Fm
Aah, drowning

, Inserita il 2020-03-23

Ascolta I Feel Like I'm Drowning

TOU LINK SRLS Capitale 2000 euro, CF 02484300997, P.IVA 02484300997, REA GE - 489695, PEC: Sede legale: Corso Assarotti 19/5 Chiavari (GE) 16043, Italia - Privacy Policy