Had Some Drinks Accordi - Two Feet

Accordi di Had Some Drinks (Two Feet), impara gratis a suonare lo spartito



Suonata 3 Volte


[Verso 1]
    Am        Em       F                Em       G       Am
E|-------------------------------|---------------------------------|
B|-------------------------------|---------------------------------|
G|-------------------------------|---------------------------------|
D|-------------------------------|---------------------------------|
A|-------------------------------|---------------------------------|
E|--5---5---0---0---1---1---1---1|---0---0---3---3---5---5---5---5-|
    Am        Em       F                Em       G       Am
E|-------------------------------|---------------------------------|
B|-------------------------------|---------------------------------|
G|-------------------------------|---------------------------------|
D|-------------------------------|---------------------------------|
A|-------------------------------|---------------------------------|
E|--5---5---0---0---1---1---1---1|---0---0---3---3---5---5---5----|
     Am             Em                    F
I've been around, brought you down, it's true
   Em                 G                    Am
I had some drinks and said some things to you
      Am              Em                    F
If I said too much, I know you're mine to lose
   Em                 G                   Am
I had some drinks and said some things to you
Am Em F 
Em G  Am
Am Em F 
Em G  Am
     Am                        Em  F
E|--------------------------|--------------------------|
B|--------------------------|--------------------------|
G|----------7/9--7--5-------|--------------------5-----|
D|---------------------5h7p5|----------------5h7---7---|
A|--------------------------|--------------7-----------|
E|--5-----------------------|--0---1-------------------|
     Em                        G   Am
E|--------------------------|--------------------------|
B|--------------------------|--------------------------|
G|----------7/9--7--5-------|--------------------5-----|
D|---------------------5h7p5|----------------5h7---7---|
A|--------------------------|--------------7-----------|
E|--0-----------------------|--3---5-------------------|
     Am                        Em  F
E|--------------------------|--------------------------|
B|--------------------------|--------------------------|
G|----------7/9--7--5-------|--------------------5-----|
D|---------------------5h7p5|----------------5h7---7---|
A|--------------------------|--------------7-----------|
E|--5-----------------------|--0---1-------------------|
     Em                        G   Am
E|--------------------------|--------------------------|
B|--------------------------|--------------------------|
G|----------7/9--7--5-------|--------------------5-----|
D|---------------------5h7p5|----------------5h7---7---|
A|--------------------------|--------------7-----------|
E|--0-----------------------|--3---5-------------------|
[Verso 2]
    Am       Em      F                Em      G       Am
E|-------------------------------|---------------------------------|
B|-------------------------------|---------------------------------|
G|-------------------------------|---------------------------------|
D|-------------------------------|---------------------------------|
A|-------------------------------|---------------------------------|
E|--5---5---0---0---1---1---1---1|---0---0---3---3---5---5---5---5-|
    Am       Em      F                Em      G       Am
E|-------------------------------|---------------------------------|
B|-------------------------------|---------------------------------|
G|-------------------------------|---------------------------------|
D|-------------------------------|---------------------------------|
A|-------------------------------|---------------------------------|
E|--5---5---0---0---1---1---1---1|---0---0---3---3---5---5---5----|
   Am                 Em                F
I think too much, I'm outta touch, it's true
   Em          G           Am
I give a fuck, actually I do
      Am              Em                  F
If I said too much, I know you're mine to lose
   Em          G           Am
I give a fuck, actually I do
Am Em F 
Em G  Am
Am Em F 
Em G  Am
     Am                        Em  F
E|--------------------------|--------------------------|
B|--------------------------|--------------------------|
G|----------7/9--7--5-------|--------------------5-----|
D|---------------------5h7p5|----------------5h7---7---|
A|--------------------------|--------------7-----------|
E|--5-----------------------|--0---1-------------------|
     Em                        G   Am
E|--------------------------|--------------------------|
B|--------------------------|--------------------------|
G|----------7/9--7--5-------|--------------------5-----|
D|---------------------5h7p5|----------------5h7---7---|
A|--------------------------|--------------7-----------|
E|--0-----------------------|--3---5-------------------|
     Am                        Em  F
E|--------------------------|--------------------------|
B|--------------------------|--------------------------|
G|----------7/9--7--5-------|--------------------5-----|
D|---------------------5h7p5|----------------5h7---7---|
A|--------------------------|--------------7-----------|
E|--5-----------------------|--0---1-------------------|
     Em                        G   Am
E|--------------------------|--------------------------|
B|--------------------------|--------------------------|
G|----------7/9--7--5-------|--------------------5-----|
D|---------------------5h7p5|----------------5h7---7---|
A|--------------------------|--------------7-----------|
E|--0-----------------------|--3---5-------------------|
[Verso 3]
    Am                           G  Am                            G
E|--------------------------------|--------------------------------|
B|--------------------------------|--------------------------------|
G|--------------------------------|--------------------------------|
D|--------------------------------|--------------------------------|
A|--------------------------------|--------------------------------|
E|-5---5---5---5---5---5---5---5-3|-5---5---5---5---5---5---5---5-3|
    Am                           G  Am
E|--------------------------------|--------------------------------|
B|--------------------------------|--------------------------------|
G|--------------------------------|--------------------------------|
D|--------------------------------|--------------------------------|
A|--------------------------------|--------------------------------|
E|-5---5---5---5---5---5---5---5-3|-5---5---5---5------------------|
   Am
I come my town, I come my closest
                    G
I come my lover too
   Am
I come my town, I come my closest
                    G
I come my lover too
   Am
I come my town, I come my closest
                    G
I come my lover too
   Am
I come my town, I come my closest
[N.C]
I come my lover too
Am Em F 
Em G  Am
Am Em F 
Em G  Am
     Am                        Em  F
E|--------------------------|--------------------------|
B|--------------------------|--------------------------|
G|----------7/9--7--5-------|--------------------5-----|
D|---------------------5h7p5|----------------5h7---7---|
A|--------------------------|--------------7-----------|
E|--5-----------------------|--0---1-------------------|
     Em                        G   Am
E|--------------------------|--------------------------|
B|--------------------------|--------------------------|
G|----------7/9--7--5-------|--------------------5-----|
D|---------------------5h7p5|----------------5h7---7---|
A|--------------------------|--------------7-----------|
E|--0-----------------------|--3---5-------------------|
     Am                        Em  F
E|--------------------------|--------------------------|
B|--------------------------|--------------------------|
G|----------7/9--7--5-------|--------------------5-----|
D|---------------------5h7p5|----------------5h7---7---|
A|--------------------------|--------------7-----------|
E|--5-----------------------|--0---1-------------------|
     Em                        G   Am
E|--------------------------|--------------------------|
B|--------------------------|--------------------------|
G|----------7/9--7--5-------|--------------------5-----|
D|---------------------5h7p5|----------------5h7---7---|
A|--------------------------|--------------7-----------|
E|--0-----------------------|--3---5-------------------|

, Inserita il 2020-03-23

Ascolta Had Some Drinks

TOU LINK SRLS Capitale 2000 euro, CF 02484300997, P.IVA 02484300997, REA GE - 489695, PEC: Sede legale: Corso Assarotti 19/5 Chiavari (GE) 16043, Italia - Privacy Policy