Eu Não Sextarei Accordi - Thiago Brava

Accordi di Eu Não Sextarei (Thiago Brava), impara gratis a suonare lo spartito



Suonata 3 Volte


G  D  Am  C
[Primeira Parte]
     G
Pro Léo, eu deixo 
O meu camarote do cantinho
        D
Pro Gustavo, eu deixo todos 
Os meus contatinhos
       Em
Pro Felipe, eu deixo a minha 
Coleção de narguile
       C9
Pro Rodolfo, eu deixo a metade 
                 
De um litro de whisky
[Segunda Parte]
                       G
Tô fazendo o meu testamento
                       D
O solteiro aqui tá morrendo
           Em
Baixei a guarda, tomei uma na cara
             Bm
Pele tá amarrada com seu sentimento
   C9
Abrir a porta da minha vida
               D
Ela pulou pra dentro
[Refrão]
    G                    D
Sextou, mas eu não sextarei
               Am
Cancela o rolêzinho
                    C9
Avisa aí, me apaixonei
    G                    D
Sextou, mas eu não sextarei
               Am
Cancela o rolêzinho
                    C9
Avisa aí, me apaixonei
                         G
Sextou, mas eu não sextarei
D  Am  C9  G
       D  Am  C9 
E|------------------------------------------|
B|------------------------------------------|
G|-2-0-----------------4/5-4---5h7-7--------|
D|-----4-2-4/5---5/7---------7--------------|
A|-------------5-----5----------------------|
E|------------------------------------------|
E|------------------------------------------|
B|-3/5-3---------------------3h5---1/3------|
G|-------5-4-2h4p2---2/42-------0----------|
D|-----------------0--------5---------------|
A|------------------------------------------|
E|------------------------------------------|
E|------------------------------------------|
B|---1p0------------------------------------|
G|-0-----2p0--------------------------------|
D|-----------2-0----------------------------|
A|---------------3-2------------------------|
E|------------------------------------------|
[Segunda Parte]
                       G
Tô fazendo o meu testamento
                       D
O solteiro aqui tá morrendo
           Em
Baixei a guarda, tomei uma na cara
             Bm
Pele tá amarrada com seu sentimento
   C9
Abrir a porta da minha vida
               D
Ela pulou pra dentro
[Refrão]
    G                    D
Sextou, mas eu não sextarei
               Am
Cancela o rolêzinho
                    C9
Avisa aí, me apaixonei
    G                    D
Sextou, mas eu não sextarei
               Am
Cancela o rolêzinho
                    C9
Avisa aí, me apaixonei
    G                    D
Sextou, mas eu não sextarei
               Am
Cancela o rolêzinho
                    C9
Avisa aí, me apaixonei
    G                    D
Sextou, mas eu não sextarei
               Am
Cancela o rolêzinho
                    C9
Avisa aí, me apaixonei
                         G  D
Sextou, mas eu não sextarei
( Am  C9 )
                         G
Sextou, mas eu não sextarei
G  D  Am  C9  G

, Inserita il 2020-03-24

Ascolta Eu Não Sextarei

TOU LINK SRLS Capitale 2000 euro, CF 02484300997, P.IVA 02484300997, REA GE - 489695, PEC: Sede legale: Corso Assarotti 19/5 Chiavari (GE) 16043, Italia - Privacy Policy