Factory Of Faith Accordi - Red Hot Chili Peppers

Accordi di Factory Of Faith (Red Hot Chili Peppers), impara gratis a suonare lo spartito

Suonata 20 Volte


E|--------------------------------------------------------20-20-20-20-20-20-20-|
B|-18-18-18-18--20-20-20--20-20---18-18-18-18--20-20-20---20-20-20-20-20-20-20-|
G|-19-19-19-19--19-19-19--19-19---19-19-19-19--19-19-19------------------------|
D|-----------------------------------------------------------------------------|
A|-----------------------------------------------------------------------------|
E|-----------------------------------------------------------------------------|

E|-----------------------------------------------------------------------------|
B|-18-18-18-18---20-20-20/(down)-----------------------------------------------|
G|-19-19-19-19---19-19-19/(down)-----------------------------------------------|
D|-----------------------------------------------------------------------------|
A|-----------------------------------------------------------------------------|
E|-----------------------------------------------------------------------------|

E|---------6------------------12-12------------------------------------------------|
B|-----6---6------11-11-10-10-10---------------------------------------------------|
G|-7-7--7--7----9--9-----9-----9---------------------------------------------------|
D|-7-------5---10-10----10----10---------------------------------------------------|
A|-5-------5-----------------------------------------------------------------------|
E|---------6-----------------------------------------------------------------------|

E|-----------------------------------------------------------------------------|
B|-----------------------------------------------------------------------------|
G|-----------------------------------------------------------------------------|
D|-----------------------------------------------------------------------------|
A|----12b(13)-12b(13)-12-------------------------------------------------------|
E|-5---------------------13-13-13-12-13---8b(10)8------------------------------|

E|-16-16-16-16-16-16/9--16-16-16/14-14-14/13-13-13/11-11-11/9-9-9/16---------|
B|---------------------------------------------------------------------------|
G|---------------------------------------------------------------------------|
D|---------------------------------------------------------------------------|
A|---------------------------------------------------------------------------|
E|---------------------------------------------------------------------------|

E|-16-16-16-14-14-14-13-13-13--------------------------------------------------|
B|---0--0--0--0--0--0--0--0--0-------------------------------------------------|
G|-----------------------------------------------------------------------------|
D|-----------------------------------------------------------------------------|
A|-----------------------------------------------------------------------------|
E|-----------------------------------------------------------------------------|

E|---------6------------------12-12------------------------------------------------|
B|-----6---6------11-11-10-10-10---------------------------------------------------|
G|-7-7--7--7----9--9-----9-----9---------------------------------------------------|
D|-7-------5---10-10----10----10---------------------------------------------------|
A|-5-------5-----------------------------------------------------------------------|
E|---------6-----------------------------------------------------------------------|

e!-----------------------------------------------------------------------------|
B|-----------------------------------------------------------------------------|
G|----------------6--5--7--5---------------------------------------------------|
D|-7--5--7--5-7-5-6--5--7--5--8------------------------------------------------|
A|-7--5--7--5-7-5-4--3--5--3--8------------------------------------------------|
E|-5--3--5--3-5-3-------------6------------------------------------------------|

e!-----------------------------------------------------------------------------|
B|-----------------------------------------------------------------------------|
G|----------------6--5--7--5-5-------------------------------------------------|
D|-7--5--7--5-7-5-6--5--7--5-5-------------------------------------------------|
A|-7--5--7--5-7-5-4--3--5--3-3-------------------------------------------------|
E|-5--3--5--3-5-3--------------------------------------------------------------|

e!-----------------------------------------------------------------------------|
B|-----------------------------------------------------------------------------|
G|----------------6--5--7--5---------------------------------------------------|
D|-7--5--7--5-7-5-6--5--7--5--8------------------------------------------------|
A|-7--5--7--5-7-5-4--3--5--3--8------------------------------------------------|
E|-5--3--5--3-5-3-------------6------------------------------------------------|

e!---------------------------------------------------------------------------0-|
B|---------------------------------------------------------------------------0-|
G|----------------6--5--7--5-5--3-3--2-2-2-2-2-2-2-2/14-14-14-14-14-14-14-14-0-|
D|-7--5--7--5-7-5-6--5--7--5-5--3-3--2-2-2-2-2-2-2-2/14-14-14-14-14-14-14-14-0-|
A|-7--5--7--5-7-5-4--3--5--3-3--1-1--0-0-0-0-0-0-0-0/12-12-12-12-12-12-12-12-0-|
E|-5--3--5--3-5-3------------------------------------------------------------0-|

E|---------6------------------12-12------------------------------------------------|
B|-----6---6------11-11-10-10-10---------------------------------------------------|
G|-7-7--7--7----9--9-----9-----9---------------------------------------------------|
D|-7-------5---10-10----10----10---------------------------------------------------|
A|-5-------5-----------------------------------------------------------------------|
E|---------6-----------------------------------------------------------------------|

E|----------------------5-*-5-*-5-*-5-*-5-*-5-10-*-10-*-10-*-10-*9-9-9-9-9-9-9-9--|
B|----------------------6-*-6-*-6-*-8-*-8-*-8-10-*-10-*-10-*-10-*9-9-9-9-9-9-9-9--|
G|----------------------7-*-7-*-7-*-7-*-7-*-7-10-*-10-*-10-*-10-*9-9-9-9-9-9-9-9--|
D|--------------------------------------------------------------------------------|
A|--------------------------------------------------------------------------------|
E|-7-*-7-*-7-*-7-*-7-*-7----------------------------------------------------------|

E|-10-*-10-*-10-*-10-*10---10/down------------------------------------------------|
B|-10-*-10-*-10-*-10-*10---10/down------------------------------------------------|
G|-10-*-10-*-10-*-10-*10---10/down------------------------------------------------|
D|--------------------------------------------------------------------------------|
A|--------------------------------------------------------------------------------|
E|--------------------------------------------------------------------------------|

, Inserita il 2019-05-18

Ascolta Factory Of Faith

TOU LINK SRLS Capitale 2000 euro, CF 02484300997, P.IVA 02484300997, REA GE - 489695, PEC: Sede legale: Corso Assarotti 19/5 Chiavari (GE) 16043, Italia - Privacy Policy