Homebody Accordi - Nai Palm

Accordi di Homebody (Nai Palm), impara gratis a suonare lo spartito

Suonata 3 Volte


YouTube link: /watch?v=_wKnec7B_0c
[Chords]
   B9sus4 Abm7 Gbm7 Db9sus4 Dbm9  E6/B  Dbm9* AM7   Ab7   Gbm9  EM7
e ---2-----4-----2-----4-----0-----9-----11----x-----4-----x-----x--- 
B ---2-----4-----2-----4-----4-----9-----12----5-----4-----9-----9--- 
G ---2-----4-----2-----4-----4-----9-----9-----6-----5-----9-----8--- 
D ---2-----4-----2-----4-----2-----9-----11----6-----4-----7-----6--- 
A ---2-----6-----4-----4-----4-----x-----x-----x-----6-----9-----7--- 
E ---x-----4-----2-----x-----x-----x-----x-----5-----4-----x-----x--- 
[lick1]
e ------4--------- 
B ---7-----7--5--- 
G ---4------------ 
D ---4------------ 
A ---6------------ 
E ---4------------ 
[lick2]
e ---2--4--2------ 
B ---2--------5--- 
G ---2------------ 
D ---2------------ 
A ---2------------ 
E ---------------- 
[Intro]
B9sus4 Abm7 B9sus4 (lick1)
Gbm7 Db9sus4
B9sus4 Dbm9
E6/B Dbm9* Dbm (lick2)
Abm7 AM7 Gbm7 B9sus4
[Verse ]
B9sus4 Abm7 B9sus4 (lick1) Gbm7 Db9sus4 B9sus4
 Hold                   on  to
    Dbm9           B9sus4 Abm7 B9sus4 (lick1)
The colour in your   day
Gbm7 Db9sus4 B9sus4 Dbm9
E6/B Dbm9* Dbm  (lick2)     Abm7 AM7
 I          will always be around
   Gbm7          B9sus4
To eat your pain
Gbm7  Abm7 AM7    Ab7
 Home   is where
                  AM7       Abm7           Gbm7  Ab7
You don't have to carry all   of the worry
                  AM7       Abm7              Gbm7  B9sus4
You don't have to bury all    of the memories
B9sus4          Abm7                        B9sus4                     Abm7
  Hold on love (hold on love, hold on love, hold on love, hold on love)
       B9sus4 Abm7 B9sus4 Dbm9           B9sus4 Abm7 B9sus4 (lick1)
To, on to            each other when you   can
Gbm7 Db9sus4 B9sus4 Dbm9
E6/B Dbm9* Dbm  (lick2)       Abm7  AM7
 Time       will always come around
   Gbm7          B9sus4 Gbm9 EM7
To meet you with    the an-  swers
Gbm9               EM7
Home    is in your body
Gbm9   EM7
Home-  body

, Inserita il 2019-10-08

Ascolta Homebody

TOU LINK SRLS Capitale 2000 euro, CF 02484300997, P.IVA 02484300997, REA GE - 489695, PEC: Sede legale: Corso Assarotti 19/5 Chiavari (GE) 16043, Italia - Privacy Policy