Celebrate The Reckless Accordi - Magic Giant

Accordi di Celebrate The Reckless (Magic Giant), impara gratis a suonare lo spartito

Suonata 3 Volte


[Intro]
   G                   C                   G                   C
e ------------------- ------------------- ------------------- ------------------- 
B ------------------- ------------------- ------------------- ------------------- 
G ------------------- ------------------- ------------------- ------------------- 
D ------------------- -----2-2-----2-2-2- ------------------- -----2-2-----2-2-2- 
A -----2-2-----2-2-2- -3-3-----3-3------- -----2-2-----2-2-2- -3-3-----3-3------- 
E -3-3-----3-3------- ------------------- -3-3-----3-3------- ------------------- 
[Verse 1]
   G
e ------------------- ------------------- 
B ------------------- ------------------- 
G ------------------- ------------------- 
D ------------------- ------------------- 
A -----2-2-----2-2-2- -----2-2-----2-2-2- 
E -3-3-----3-3------- -3-3-----3-3------- 
   We've been up for days           Let 'em
   C
e ------------------- ------------------- 
B ------------------- ------------------- 
G ------------------- ------------------- 
D -----2-2-----2-2-2- -----2-2-----2-2-2- 
A -3-3-----3-3------- -3-3-----3-3------- 
E ------------------- ------------------- 
   Say we've gone insane           The path we
   G
e ------------------- ------------------- 
B ------------------- ------------------- 
G ------------------- ------------------- 
D ------------------- ------------------- 
A -----2-2-----2-2-2- -----2-2-----2-2-2- 
E -3-3-----3-3------- -3-3-----3-3------- 
   Walk can't be explained         You're either
   C
e ------------------- ------------------- 
B ------------------- ------------------- 
G ------------------- ------------------- 
D -----2-2-----2-2-2- -----2-2-----2-2-2- 
A -3-3-----3-3------- -3-3-----3-3------- 
E ------------------- ------------------- 
   On or off this train
         G
I need a kick, I need a beat
           C
I need you dancin' in the street
             Am      G       D
And from the way you turned around
            Am      G      D
I heard the silence in the sound
[Chorus]
              C                   D
We're turning small bordegas into Club Las Vegas
        G                        Am
Just to celebrate, celebrate the reckless
            C
We took the walk of shame
                D
Straight to the hall of fame
        G                              Am       C
Forever dancin' with, dancin' with the misfits
                       Em        D  G  C
Cause we celebrate the reckless
                       Em        D  G  C
Yeah, we celebrate the reckless
[Verse 2]
            G
We take the damned and set them free
        C
Use the locks to turn the keyes
             G
And when the city falls asleep
             C
We're riding lightening in our dreams
             Am      G       D
And from the way you turned around
            Am      G      D
I heard the silence in the sound
[Chorus]
              C                   D
We're turning small bordegas into Club Las Vegas
        G                        Am
Just to celebrate, celebrate the reckless
            C
We took the walk of shame
                D
Straight to the hall of fame
        G                              Am       C
Forever dancin' with, dancin' with the misfits
                       Em        D  G  C
Cause we celebrate the reckless
                       Em        D  G  C
Yeah, we celebrate the reckless
[Bridge]
C
You'll be searchin' far and wide
    D
You hope you'll make it to the sky
    Em
But what you need is stuck inside
          G
You gotta let it go, let it go
C
You'll be searchin' far and wide
    D
You hope you'lll make it to the sky
    Em
But what you need is stuck inside
          G
You gotta let it go, let it go
[Interlude]
C  D  Em  G  x2
[Chorus]
              C                   D
We're turning small bordegas into Club Las Vegas
        G                        Am
Just to celebrate, celebrate the reckless
            C
We took the walk of shame
                D
Straight to the hall of fame
        G                              Am       C
Forever dancin' with, dancin' with the misfits
              C                   D
We're turning small bordegas into Club Las Vegas
        G                        Am
Just to celebrate, celebrate the reckless
            C
We took the walk of shame
                D
Straight to the hall of fame
        G                              Am       C
Forever dancin' with, dancin' with the misfits
[Outro]
Em  C  G  D  x2

, Inserita il 2019-09-10

Ascolta Celebrate The Reckless

TOU LINK SRLS Capitale 2000 euro, CF 02484300997, P.IVA 02484300997, REA GE - 489695, PEC: Sede legale: Corso Assarotti 19/5 Chiavari (GE) 16043, Italia - Privacy Policy