Asaok Accordi - Less Than Jake

Accordi di Asaok (Less Than Jake), impara gratis a suonare lo spartito

Suonata 56 Volte


Transcribed by: paul
Email: *
sorry i havent put much of the song order in but its
not hard to figure out! the right parts are there though!
-|---8---11-----9---8---6h8-8---4---4--------6---4---3h4---|-----------------|
-|-9---9----9/7---7---7-------2---2---2-2/-4---4---4-----9-|-----------------|
-|---------------------------------------------------------|-----------------|
-|---------------------------------------------------------|-----------------|
                   bassintro
-|-----------------------------------------|----------------------x4---------|
-|-----------------------------------------|----------------------|----------|
-|-888--111111--9-8-6-8--444444--6666--333-|-------9999-----------|----------|
-|-999--9-9-9---7-7-7-7--222222--4444--444-|--9999-9999-7777---9--|----------|
-|-----------------------------------------|--9999-7777-7777---9--|----------|
-|-----------------------------------------|--7777------5555---7--|----------|           
       intro                           then
-|-------------------------------|-----------------------------------|-------|
-|-------------------------------|-----------------------------------|-------|
-|------9-----------9------------|-9-----11----------9----------11---|-------|
-|9-----9-x8--7-----9-x3--7----9-|-9-x6--11x6--9-----9-x6--9----11x8-|-------|
-|9-x8--7-----7-x3--7-----7x3--9-|-7-----9-----9-x8--7-----9-x6-9----|-------|
-|7-----------5-----------5----7-|-------------7-----------7---------|-------|
  verse                                   chorus
-|---------------------------------------------------------------------------|
-|---------------------------------------------------------------------------|
-|-99999999-1111111111111111------------99999999--1111111111111111-----------|
-|-99999999-1111111111111111--9---9--6--99999999--1111111111111111-----------|
-|-77777777-9-9-9-9-9-9-9-9---9---9--6--77777777--9-9-9-9-9-9-9-9------------|
-|----------------------------7---6--4---------------------------------------|

, Inserita il 2019-05-18

TOU LINK SRLS Capitale 2000 euro, CF 02484300997, P.IVA 02484300997, REA GE - 489695, PEC: Sede legale: Corso Assarotti 19/5 Chiavari (GE) 16043, Italia - Privacy Policy