Be Honest Accordi - Jason Mraz

Accordi di Be Honest (Jason Mraz), impara gratis a suonare lo spartito

Suonata 32 Volte


[Intro] D7M  A5-  Aº  Cº  Ebº
        Em7  F#m7  Gm7
        D6  D 
        C  Em7 
     D7M         A5- Aº     Cº        Ebº
E|-5---5h7h-5----------8--------11---------14---------|
B|-7------------------7-------10---------13-----------|
G|-6-----------8-----8------11---------14-------------|
D|-7-7---------7---7-----10---------13----------------|
A|-5--------------------------------------------------|
E|----------------------------------------------------|

    Em7    F#m7   Gm7                         D6 D 
E|-----------------------------10----10------7--------|
B|-8---8--10--10/11--11--11----11h13-11------7--7--5--|
G|-7---7--9----9/10--10--10------------------7--7--6--|
D|----------------------------------------------------|
A|-7---7--9----9/10--10-----10---------10--5----5--5--|
E|----------------------------------------------------|

       C               Em7       A7(13)
E|-----------7----------------------------------------|
B|-------------10-7--8--8-10-----7----7----7----------|
G|-----8-8-----------7--7--------6----6----6----------|
D|-----7-7-----------------------5----5----5----------|
A|-------------------7--7-----------------------------|
E|---9-----9-------------------7----7----7------------|

   D             Bm                F#7
Ok go, go hang your heart on, any tree
        Bm                         E
You can make yourself available to anybody
      Bm                             F#7
Cause every livin' person knows you are a   prize
     Bm                      E
Whichever way you go I'll be easy to find
        Em7                   A6
I don't ask for much, just be honest, with me
        Em7              A6
I don't ask for much, be honest
D                    Bm                              F#7
Think of this song as a promise you can do what you want
       Bm                           E
If you decide you wanna move into a new stage
  Bm                            F#7
Deleting me from pages in your mission statement
   Bm                     E
My love is unconditional, make no mistake
        Em7                   A6           D    Bm
I don't ask for much, just be honest, with me
        Em7                   A6           Gm7
I don't ask for much, just be honest, with me
       Dmaj7     Adim7   Cdim7   Ebdim7   Em7
Who we are, when love is what it wants to be
Em7 F#m7 Gm7                            Bm
We  are  free, and we are, having the best day ever by far
      Em7                          A6
Being treated to the light, like a superstar
     D                                    Bm                       F#7
I can hold space while you see what your heart has to say about me
     Bm                              E
I acknowledge you for what you do to keep strong
Bm                                               F#7
There's no dotted line to sign away your freedom
Bm                            E
I'll always stand beside you, don't get me wrong
        Em7                    A6              Gm7
I don't ask for much, just be honest, with me
       Dmaj7     Adim7   Cdim7   Ebdim7   Em7
Who we are, when love is what it wants to be
Em7 F#m7 Gm7                             Bm
We  are  free, and we are, having the best day ever by far
      Em7            A6
Yes we are.. yes we are

, Inserita il 2019-05-15

Ascolta Be Honest

TOU LINK SRLS Capitale 2000 euro, CF 02484300997, P.IVA 02484300997, REA GE - 489695, PEC: Sede legale: Corso Assarotti 19/5 Chiavari (GE) 16043, Italia - Privacy Policy