Empire Of The Clouds Accordi - Iron Maiden

Accordi di Empire Of The Clouds (Iron Maiden), impara gratis a suonare lo spartito

Suonata 4 Volte


Intro
parte 1
E|-15-14-12-10-12--10-12--15-14---15-14-12-10-12--10-7-10-12-|
B|-----------------------------------------------------------|
G|-----------------------------------------------------------|
D|-----------------------------------------------------------|
A|-----------------------------------------------------------|
E|-----------------------------------------------------------|

E|-15-14-12-10-12--10-12--15-14---15-14-12-10-12--10-7-9-10--|
B|-----------------------------------------------------------|
G|-----------------------------------------------------------|
D|-----------------------------------------------------------|
A|-----------------------------------------------------------|
E|-----------------------------------------------------------|

E|-15-14-12-10-12--10-12--15-14---15-14-12-10-12--10-7-10-12-|
B|-----------------------------------------------------------|
G|-----------------------------------------------------------|
D|-----------------------------------------------------------|
A|-----------------------------------------------------------|
E|-----------------------------------------------------------|

E|-15-14-12-10-12--10-12--15-14---15-14-12-10-12--10-7-9-10--|
B|-----------------------------------------------------------|
G|-----------------------------------------------------------|
D|-----------------------------------------------------------|
A|-----------------------------------------------------------|
E|-----------------------------------------------------------|

parte 2
E|---------------------------------------------------------------------------------------------|
B|-8-10-11-12~-10-12-13-12-10~--8-12---------8-10-11-12~--12-10-7~~~--10-8-5~~---12-10-8-7-12--|
G|-----------------------------------9-7-9-----------------------------------------------------|
D|---------------------------------------------------------------------------------------------|
A|---------------------------------------------------------------------------------------------|
E|---------------------------------------------------------------------------------------------|
E|---------------------------------------------------------------------------------------------|
B|-8-10-11-12~-10-12-13-12-10~--8-12---------8-10-11-12~--12-10-7~~~--10-8-5~~---12-10-8-7-12--|
G|-----------------------------------9-7-9-----------------------------------------------------|
D|---------------------------------------------------------------------------------------------|
A|---------------------------------------------------------------------------------------------|
E|---------------------------------------------------------------------------------------------|

, Inserita il 2019-05-15

TOU LINK SRLS Capitale 2000 euro, CF 02484300997, P.IVA 02484300997, REA GE - 489695, PEC: Sede legale: Corso Assarotti 19/5 Chiavari (GE) 16043, Italia - Privacy Policy