I Was A Teenage Teenager Accordi - Green Day

Accordi di I Was A Teenage Teenager (Green Day), impara gratis a suonare lo spartito



Suonata 3 Volte


A  E  F#m  E 
A                     E   F#m       E      A    E  F#m  E
I don't want to freak you out but I cannot lie
A                     E   F#m       E      A    E  F#m   E
I don't want to freak you out but I cannot lie
   A             E   F#m
So who's holding the drugs?
A             E   F#m
Who's holding the drugs?
A                     E   F#m       E      A    E  F#m
I don't want to freak you out but I cannot lie
  A5                     D5               E5
I was a teenage teenager full of piss and vinegar
A5                         D5     E5
Living like a prisoner for haters
  A5                        D5          E5
I was a teenage teenager, I am an alien visitor
   A5                                   D5      E5
My life's a mess and school is just for suckers
A5  E5  F#5  E5
A5  E5  F#5  E5
A                     E   F#m       E      A    E  F#m  E
I don't want to freak you out but I cannot lie
A                     E   F#m       E      A    E  F#m   E
I don't want to freak you out but I cannot lie
   A             E   F#m
So who's holding the drugs?
A             E   F#m
Who's holding the drugs?
A                     E   F#m       E      A    E  F#m
I don't want to freak you out but I cannot lie
  A5                     D5               E5
I was a teenage teenager full of piss and vinegar
A5                         D5     E5
Living like a prisoner for haters
  A5                        D5          E5
I was a teenage teenager, I am an alien visitor
   A5                                   D5      E5
My life's a mess and school is just for suckers
A5  D5  E5 
       A5  D5  E5 
E|--------------------------------------------------------|
B|--------------------------------------------------------|
G|-9/11--9---------9/11-9--------9/11--9---------9/11-9---|
D|--------11--7----------11-----------11--7------------11-|
A|--------------------------------------------------------|
E|--------------------------------------------------------|
E|--------------------------------------------------------|
B|---------------------------------12/14--12--------------|
G|----------7-9-11-13-14-14/16--14------------------------|
D|--7-9-11------------------------------------------------|
A|--------------------------------------------------------|
E|--------------------------------------------------------|
A5  E5  F#5  E5
  A5                     D5               E5
I was a teenage teenager full of piss and vinegar
A5                         D5     E5
Living like a prisoner for haters
  A5                        D5          E5
I was a teenage teenager, I am an alien visitor
   A5                                   D5      E5
My life's a mess and school is just for suckers

, Inserita il 2020-02-27

Ascolta I Was A Teenage Teenager

TOU LINK SRLS Capitale 2000 euro, CF 02484300997, P.IVA 02484300997, REA GE - 489695, PEC: Sede legale: Corso Assarotti 19/5 Chiavari (GE) 16043, Italia - Privacy Policy