Extra Pale Accordi - Goo Goo Dolls

Accordi di Extra Pale (Goo Goo Dolls), impara gratis a suonare lo spartito

Suonata 7 Volte


Person: Aaron H.
Chords:
G5 - 355xxx
F#5 -244xxx
E5 - 022xxx
B5 - x244xx
C5 - x355xx

e -3b-3b-3b-3b-3b-2----|-3b-3b-3b-3b-3b-2--0--
B ------------------3--|----------------------
G ---------------------|----------------------
D ---------------------|----------------------
A ---------------------|----------------------
E ---------------------|----------------------

e -3b-3b-3b-3b-3b-2----
B ------------------3--
G --------------------- 
D --------------------- 
A --------------------- 
E --------------------- 

Verse:
G5 F#5 E5
Extra pale
G5 F#5    E5
Oh you're frail now
B5             C5
   I shouldn't laugh about it
G5   F#5 E5
Tragedy   sets you free but
B5               C5                      G5-F#5-E5 G5-F#5-E5
   I should have known it from the start
B5               C5
   I should have known that it was
Chorus:
E5           G5
Just another sequel
E5           G5
Just another reason for you
(intro)
(verse)
How's your day
Did it go your way but
You never ask about it
All the things I wish I'd be
I should have known it from the start
I should have known that it was
(chorus)
Just another sequel
Just another reason for you
Just another sequel
Just another reason for your sighs
(Bass Solo)
(Guitar Solo)
(verse)
Extra pale
Oh you're frail now
I couldn't laugh about it
Tragedy sets you free
I should have known that it was
(chorus)
Just another sequel
Just another reason for you
Just another sequel           E5
Just another reason for your (lies) 

, Inserita il 2019-05-21

TOU LINK SRLS Capitale 2000 euro, CF 02484300997, P.IVA 02484300997, REA GE - 489695, PEC: Sede legale: Corso Assarotti 19/5 Chiavari (GE) 16043, Italia - Privacy Policy