Obá Iná Accordi - Ermal Meta

Accordi di Obá Iná (Ermal Meta), impara gratis a suonare lo spartito


Suonata 36 Volte


Riff 1
E|----------4-----------1-----------4--1-4--
B|----------3-----------3----------3--3--3--
G|----------4-----------4----------------4--
D|------------------------------------------
A|--2-0-2-0-----2-0-2------2-0-2-0----------
E|--2-0-2-------2-0-2-0----2-0-2------------
     P H         P H        P H          
E|------------1-------------1------------1--1--1--
B|------------3-------------3------------3--3--3--
G|------------4-------------4------------4--4--4--
D|------------------------------------------------
A|--2-p-0---------2-p-0--------2-p-0--------------
E|--------2-1-----------2-1----------2-1----------

E|-------------6-------------6-------------6--9--6-
B|-------------8-------------8-------------8--8--8-
G|-------------9-------------9-------------9--9--9-
D|-------------8-------------8-------------8--8--8-
A|-----------4-------------4-------------4---------
E|--6-p-3-h-6-----6-p-3-h-6-----6-p-3-h-6----------

E|------------1-------------1------------1--4--1--
B|------------3-------------3------------3--3--3--
G|------------4-------------4------------4--4--4--
D|------------------------------------------------
A|--2-p-0---------2-p-0--------2-p-0--------------
E|--------2-1-----------2-1----------2-1----------

, Inserita il 2019-04-10

TOU LINK SRLS Capitale 2000 euro, CF 02484300997, P.IVA 02484300997, REA GE - 489695, PEC: Sede legale: Corso Assarotti 19/5 Chiavari (GE) 16043, Italia - Privacy Policy