Canção De Sally Accordi - Danny Elfman

Accordi di Canção De Sally (Danny Elfman), impara gratis a suonare lo spartito

Suonata 8 Volte


Dm                  Eb
Eu vejo o céu a escurecer
          A7       Dm
E não há lua a brilhar
             F           Eb
E embora eu tente lhe entender
           A7        Dm
O medo vem me assombrar,
           F            Eb
Sei que o pior está por vir.
           Dm  A7       A# Eb
Se ele soubesse o que eu sinto
        Dm     A7         A#
Meu coração pulsando com paixão
    A7       Dm
Vivendo na ilusão.
          Dm       Eb
O que será do meu amor?
          A7         Dm
Terminará somente em dor?
           F           Eb
E embora eu tente não pensar
           A7          Dm
No que o futuro irá trazer
       Dm  A7      A# A7
O medo volta a me assustar.
            Dm A7          A#  Eb
E eu me pergunto se um dia junto
         Dm      A7      A#
Ao meu amor eu poderei viver?
    A7        Dm
Quem poderá dizer?
(tablatura que acompanha a base):
E|---0---3---5---7----0---3--0---1-----------|
B|-------------------------------------------|
G|-------------------------------------------|
D|-------------------------------------------|
A|-------------------------------------------|
E|-------------------------------------------|

E|---1---5---7---8----5---2------0-----------|
B|-------------------------------4-----------|
G|-------------------------------------------|
D|-------------------------------------------|
A|-------------------------------------------|
E|-------------------------------------------|

E|---7---7---8---10----3---5--7---5----------|
B|-------------------------------------------|
G|-------------------------------------------|
D|-------------------------------------------|
A|-------------------------------------------|
E|-------------------------------------------|

E|---5---7---8-------8---5--2-----0----------|
B|--------------------------------4----------|
G|-------------------------------------------|
D|-------------------------------------------|
A|-------------------------------------------|
E|-------------------------------------------|

E|---7---7---8---10----3---5--7---5----------|
B|-------------------------------------------|
G|-------------------------------------------|
D|-------------------------------------------|
A|-------------------------------------------|
E|-------------------------------------------|

E|---5---7---8----8----7---2--3---5---5---3--|
B|-------------------------------------------|
G|-------------------------------------------|
D|-------------------------------------------|
A|-------------------------------------------|
E|-------------------------------------------|

E|---8---5---2---0---0------0---2---3---0----|
B|--------------------------4----------------|
G|-------------------------------------------|
D|-------------------------------------------|
A|-------------------------------------------|
E|-------------------------------------------|

E|---0--------0---2----3---0-----------------|
B|--------4----------------------------------|
G|-------------------------------------------|
D|-------------------------------------------|
A|-------------------------------------------|
E|-------------------------------------------|
E|---0---3---5---7----0---3--0---1-----------|
B|-------------------------------------------|
G|-------------------------------------------|
D|-------------------------------------------|
A|-------------------------------------------|
E|-------------------------------------------|

E|---1---5---7---8----5---2------0-----------|
B|-------------------------------4-----------|
G|-------------------------------------------|
D|-------------------------------------------|
A|-------------------------------------------|
E|-------------------------------------------|

E|---7---7---8---10----3---5--7---5----------|
B|-------------------------------------------|
G|-------------------------------------------|
D|-------------------------------------------|
A|-------------------------------------------|
E|-------------------------------------------|

E|---5---7---8-------8---5---2-----0---------|
B|--------------------------------4----------|
G|-------------------------------------------|
D|-------------------------------------------|
A|-------------------------------------------|
E|-------------------------------------------|

E|---7---7---8---10----3---5--7---5----------|
B|-------------------------------------------|
G|-------------------------------------------|
D|-------------------------------------------|
A|-------------------------------------------|
E|-------------------------------------------|

E|---5---7---8----8----7---2--3---5---5---3--|
B|-------------------------------------------|
G|-------------------------------------------|
D|-------------------------------------------|
A|-------------------------------------------|
E|-------------------------------------------|

E|---8---5---2---0---0------0---2---3---0----|
B|--------------------------4----------------|
G|-------------------------------------------|
D|-------------------------------------------|
A|-------------------------------------------|
E|-------------------------------------------|

E|---0--------0---2----3---0-----------------|
B|--------4----------------------------------|
G|-------------------------------------------|
D|-------------------------------------------|
A|-------------------------------------------|
E|-------------------------------------------|

, Inserita il 2019-05-15

TOU LINK SRLS Capitale 2000 euro, CF 02484300997, P.IVA 02484300997, REA GE - 489695, PEC: Sede legale: Corso Assarotti 19/5 Chiavari (GE) 16043, Italia - Privacy Policy