Free To Decide Accordi - Cranberries

Accordi di Free To Decide (Cranberries), impara gratis a suonare lo spartito


Suonata 34 Volte


[Intro]
    G             C             Am            Am
E|----------------------------------------------------------|
B|------------------------------1-1-1-0--1--1-1-1-1-3--1--1-|
G|--0-0-0-0--0--0-0-0-0-0--0--0-2-2-2-2--2--2-2-2-2-2--2--2-|  
D|--0-0-0-0--0--0-2-2-2-2--2--2-2-2-2-2--2--2-2-2-2-2--2--2-|
A|--2-2-2-0--2--2-3-3-3-3--3--3-0-0-0-0--0--0-0-0-0-0--0--0-|
E|--3-3-3-3--3--3-------------------------------------------|

      G                  C                Am
It's not worth anything more than this at all
      G                     C               Am
I'll live as I choose or I will not live at all
      G                          Am
So return to where you come from, return to where you dwell
           G                 C              Am
Because harassment's not my forte, but you do it very well
          G               Am
But I'm free to decide, I'm free to decide
         G         C          Am
And I'm not so suicidal after all
      G               Am
I'm free to decide, I'm free to decide
         G         C          Am
And I'm not so suicidal after all
You must have nothing more with your time to do
There's a war in Russia and Sarajevo too
So to hell with what you're thinking
And to hell with your narrow mind
Your so distracted from the real things
You should leave your life behind
[Solo]
E|----------------------------------------------------------------------|
B|-0-0-0-1--3--3-5-5-5-8--8--10-10h12-12-10--12--10-10h12-12-10--12--10-|
G|----------------------------------------------------------------------|
D|----------------------------------------------------------------------|
A|----------------------------------------------------------------------|
E|----------------------------------------------------------------------|

E|---------------------------------------------------12-12-12-10--12--10-|
B|-0-0-0-1--3--3-5-5-5-8--8-8-10-10h12-12-10--12--10-12-12-12-10--12--10-|
G|-----------------------------------------------------------------------|
D|-----------------------------------------------------------------------|
A|-----------------------------------------------------------------------|
E|-----------------------------------------------------------------------|

E|-12-12-12-10--12--10-----------------------|
B|-12-12-12-10--12--10-----------------------|
G|-------------------------------------------|
D|-------------------------------------------|
A|-------------------------------------------|
E|-------------------------------------------|

E|---------------------------------------------------12-12-12-10--10--10-10-|
B|-0-0-0-1--3--3-5-5-5-8--8-8-10-10h12-12-10--12--10-12-12-12-10--10--10--0-|
G|------------------------------------------------------------------------0-|
D|--------------------------------------------------------------------------|
A|--------------------------------------------------------------------------|
E|--------------------------------------------------------------------------|

, Inserita il 2019-03-27

TOU LINK SRLS Capitale 2000 euro, CF 02484300997, P.IVA 02484300997, REA GE - 489695, PEC: Sede legale: Corso Assarotti 19/5 Chiavari (GE) 16043, Italia - Privacy Policy