Minha Saudade Tem Um Nome Accordi - Bryan Behr

Accordi di Minha Saudade Tem Um Nome (Bryan Behr), impara gratis a suonare lo spartito


Suonata 3 Volte


A9  Bm7  D9  Dm
[Primeira Parte]
E|----------------0-------2------4-|
B|----------------2----------------|
G|-----2/4/2h0----2-------2------4-|
D|------------------------2------4-|
A|---------------------------------|
E|---------------------------------|
A9                    Bm7
Minha saudade tem um nome
             D9  Dm            A9       E
Tem até telefone, endereço e lar larará
A9                      Bm7
Minha saudade as vezes liga
                  D9   Dm
Dizendo que eu devia
                  A9       E
Parar de me importar larará
                        
E|------------------------------|
B|----0-----------------------4-|
G|----7----11---9---7---6-----6-|
D|----6-----9---7---6---4-----4-|
A|----0-----------------------5-|
E|----0-------------------------|
E|-------------------------------|
B|-----0-----------------------2-|
G|-----7----11----9---7---11---4-|
D|-----6-----9----7---6----9---2-|
A|-----0-----------------------3-|
E|-----0-----------------------2-|
[Refrão]
      A9                 C#m7
Costumava lhe chamar de amor
             Bm7
Quando a sua dor
      A9                    E
Era maior do que qualquer coisa
      A9               C#m7
Costumava lhe fazer feliz
            Bm7
Como sempre quis
   A9                E
Mas agora o que me resta?
E|---2-------------4-|
B|-------------------|
G|---2-------------4-|
D|---2-------------4-|
A|-------------------|
E|-------------------|
[Segunda Parte]
A9                    Bm7
Minha saudade me ensina
                D9   Dm
Que tudo nessa vida
            A9       E
Pode se acabar larara
A9                    Bm7
Minha saudade me judia
                 D9   Dm
Dizendo que um dia
                   A9       E
Talvez possa voltar larara
                        
E|-------------------------------|
B|-----0-----------------------4-|
G|-----7----11---9---7---6-----6-|
D|-----6-----9---7---6---4-----4-|
A|-----0-----------------------5-|
E|-----0-------------------------|
E|--------------------------------|
B|--------0---------------------2-|
G|--------7---11---9---7---11---4-|
D|--------6----9---7---6----9---2-|
A|--------0---------------------3-|
E|--------0---------------------2-|
[Refrão]
   A9                 C#m7
Costumava lhe chamar de amor
             Bm7
Quando a sua dor
      A9                    E
Era maior do que qualquer coisa
      A9               C#m7
Costumava lhe fazer feliz
            Bm7
Como sempre quis
    A9                E
Mas agora o que me resta?
E|---2-------------4-|
B|-------------------|
G|---2-------------4-|
D|---2-------------4-|
A|-------------------|
E|-------------------|
[Ponte] 
A9                    Bm7
Minha saudade tem um nome
             D9              A9      
Tem até telefone, endereço e lar

, Inserita il 2020-05-18

Ascolta Minha Saudade Tem Um Nome

TOU LINK SRLS Capitale 2000 euro, CF 02484300997, P.IVA 02484300997, REA GE - 489695, PEC: Sede legale: Corso Assarotti 19/5 Chiavari (GE) 16043, Italia - Privacy Policy